cifras.art.br - cifras e tablaturas de Nando Reis para violão e guitarra


Você está vendo a música Esperando na Janela de Gilberto Gil. Quer ver cifras de outros artistas? Use o abecedário abaixo.

ABCDEFGHIJKLMNOPQRSTUVWXYZ0-9Temas e Jingles

Exibindo letra cifrada

Versão 1
---------

Música: Esperando na Janela (Acústico)
Artista: Gilberto Gil
Álbum: MPB (Coleção Som do Brasil)
Tom : D

Introdução 1:
              Assobio...
E|--3p2--------------------------|
B|-------3-----------3-----3--2--|
G|----------2--------2-----2--2--|
D|-------------0--0--------2--2--|
A|----------------------0--0--0--|
E|-------------------------------|

E|-----2--2--------3p2--------|
B|-----2--2-------------3-----|
G|-------------------------2--|
D|-----------0--0-------------|
A|--0-------------------------|
E|----------------------------|

E|--------------------------------|
B|--------3--------3--2--------2--|
G|--------2--------2--2--------2--|
D|--0--0-----------2--2-----------|
A|-----------0--0--0--0--0--0-----|
E|--------------------------------|

               
...Assobio         
E|-----------|
B|-----------|
G|-----------|
D|-----0--0--|
A|-----------|
E|-----------|

Verso:

       Ainda me 
E|--3p2--------|
B|-------3-----|
G|----------2--|
D|-------------|
A|-------------|
E|-------------|
  
  lembro...
   D        A     A4 A  A4 A  
E|-----------------------------|
B|--------3--------3--2--3--2--|
G|--------2--------2--2--2--2--| 
D|--0--0-----------2--2--2--2--|
A|-----------0--0--------------|
E|-----------------------------|
             
     ...Esse aperto aumenta...
              D        A
E|--3p2-----------------------|
B|-------3-----------3--------|
G|----------2--------2--------|
D|-------------0--0-----------|
A|----------------------0--0--|
E|----------------------------|     

... E eu não vejo a hora...                   
      A  G  A  D  D4    D            
   E|--0--3--0--2--3-----2-----|
   B|--2--3--2--3--3-----3-----|
   G|--2--4--2--2--2-----2-----|
   D|--2--5--2--0--0--0--0--0--| 
   A|--0--5--0-----------------|
   E|-----3--------------------|

Refrão:

Por isso eu  vou...
            Ebº Em             A7/C#
         E|--2--------0-----------|
         B|--1--------0-----------|
         G|--2-----0-----0--------|
         D|--1--------------------|
         A|-----------------2--4--|
         E|-----0-----------------|

            F#m         Bm7
E|-----0-----------2-----2-----2--|
B|-----2-----------2-----3-----3--|
G|--0-----0-----2-----2-----4-----|
D|--------------------------------|
A|--------------------------------|
E|-----------2--------------------|

                ...Não sei se vou
      Em          A7
E|-----------0-----------0-----|
B|-----------0-----------2-----|
G|--4-----0-----0-----0-----0--|
D|-----------------------------|
A|-----------------0-----------|
E|-----0-----------------------|

me segurar      Por isso eu vou...
   D           Ebº 
E|--------2-----------2-----|
B|--------3-----------1-----|
G|-----2-----2-----2-----2--|
D|--0-----------1-----------|
A|--------------------------|
E|--------------------------|

   Em          A7
E|--------0-----------0-----|
B|--------0-----------2-----|
G|-----0-----0-----0-----0--|
D|--------------------------|
A|--------------2-----------|
E|--0-----------------------|

   F#m         Bm7
E|--------2-----2-----2-----|
B|--------2-----3-----3-----|
G|-----2-----2-----4-----4--|
D|--------------------------|
A|--------------------------|
E|--2-----------------------|

             ...Não sei se      
   Em          A7
E|--------0-----------0-----|
B|--------0-----------2-----|
G|-----0-----0-----0-----0--|
D|--------------------------|
A|--------------0-----------|
E|--0-----------------------|

vou me segurar
       D      D4 D         
    E|--2------3--2--|
    B|--3------3--3--|
    G|--2------2--2--|
    D|--0------0--0--|
    A|---------------|
    E|---------------|


Verso:

D                      	       A	      
 Ainda me lembro do seu caminhar
       A4       A        A4        D          	            
Do seu jeito de olhar eu me lembro bem
                             A
Fico querendo sentir o seu cheiro
  A4      A         A4   D
E daquele jeito que ela tem
	                    A
O tempo todo eu fico feito tonto
A4	A         A4      D
Sempre procurando mas ela não vem
	                 A
Esse aperto no fundo do peito
A4	   A         A4         D
Desses que o sujeito não pode aguentar ai
                             A
Esse aperto aumenta o meu desejo
  A             G         A       D    D4 D
E eu não vejo a hora de poder lhe falar


Refrão:
                                       
	    Ebº          Em  	         
Por isso eu  vou na casa dela ai, ai,   
A7/C#	  	       F#m7              
 Falar do meu amor pra ela, vai            
Bm7                    Em                                 
 Tá me esperando na janela ai, ai           
A7                 D   	                  
 Não sei se vou me segurar                
                                             
Ebº                       Em  	         
 Por isso eu  vou na casa dela ai, ai,   
A7	  	       F#m7              
 Falar do meu amor pra ela, vai            
Bm7                    Em                                 
 Tá me esperando na janela ai, ai           
A7                 D   	  D4 D                
 Não sei se vou me segurar 

Introdução 2:

Assobio...
E|--------------2--2----------|
B|-----3--2-----2--2----------|
G|-----2--2-------------------|
D|-----2--2-----------0--0----|
A|--0--0--0--0----------------|
E|----------------------------|

E|--3p2-----------------------|
B|-------3-----------3--------|
G|----------2--------2--------|
D|-------------0--0-----------|
A|----------------------0--0--|
E|----------------------------|

                 ...Assobio 
E|-------------------|--------|
B|----3--2--------2--|--------|
G|----2--2--------2--|--------|
D|----2--2-----------|--0--0--|
A|----0--0--0--0-----|--------|
E|-------------------|--------|

Repete: Verso

Repete: Refrão

Introdução 2

Repete: Refrão

Introdução 2

No final da introdução 2 troque: 

...Assobio
   E|--------|
   B|--------|
   G|--------|
   D|--0--0--|
   A|--------|
   E|--------|

por:

   D  D4 D 
E|--2--3--2--|
B|--3--3--3--|
G|--2--2--2--|
D|--0--0--0--|
A|-----------|
E|-----------|
           
-------------------------------------
Se tiverem alguma sugestão (Critíca)
ou correção a fazer sobre esta cifra
mande um e-mail.
Correção: Jorcimar Ferreira de Paiva (litio332000@pop.com.br)




Versão 2
--------
Esperando na Janela
Tom :E
Intro:  (E  B7  A  B7)

E 			      B
 Ainda me lembro do seu caminhar
                  	            E
Do seu jeito de olhar eu me lembro bem
                             B
Fico querendo sentir o seu cheiro
	                 E
E daquele jeito que ela tem
	                    B
O tempo todo eu fico feito tonto
	                       E
Sempre procurando mas ela não vem
	                 B
Esse aperto no fundo do peito
	                            E
Desses que o sujeito não pode aguentar
                             B
Esse aperto aumenta o meu desejo
	         A         B    E 
E eu não vejo a hora de poder lhe falar

		         A
Por isso eu vou na casa dela
B/A	  	         G#m           C#m7
    Falar do meu amor pra ela, ai, ai,
		   F#m7   B7  
Tá me esperando na janela
	   	   E	  D/F#  E/G#
Não sei se vou me segurar
(E  B7  A  B/A )


Contribuição: Rogério dos Reis
Correção: Gustavo Pereira Bertazzo (pbertazzo@terra.com.br)

©2003 gilberto-gil.cifras.art.br - todos os direitos reservados